ISO-10303-21;
HEADER;
FILE_DESCRIPTION (( 'STEP AP203' ),
    '1' );
FILE_NAME ('CLP1M-SHU-12 Øàéáà ïëîñêàÿ óñèëåííàÿ M12.STEP',
    '2016-02-12T08:27:30',
    ( '' ),
    ( '' ),
    'SwSTEP 2.0',
    'SolidWorks 2014',
    '' );
FILE_SCHEMA (( 'CONFIG_CONTROL_DESIGN' ));
ENDSEC;

DATA;
#1 = PERSON_AND_ORGANIZATION_ROLE ( 'creator' ) ;
#2 = EDGE_LOOP ( 'NONE', ( #159 ) ) ;
#3 = PERSON ( 'UNSPECIFIED', 'UNSPECIFIED', 'UNSPECIFIED', ('UNSPECIFIED'), ('UNSPECIFIED'), ('UNSPECIFIED') ) ;
#4 = APPROVAL_ROLE ( '' ) ;
#5 = APPROVAL_ROLE ( '' ) ;
#6 = APPROVAL_STATUS ( 'not_yet_approved' ) ;
#7 = CC_DESIGN_SECURITY_CLASSIFICATION ( #114, ( #61 ) ) ;
#8 = CC_DESIGN_APPROVAL ( #20, ( #114 ) ) ;
#9 = APPROVAL_DATE_TIME ( #82, #20 ) ;
#10 = DATE_TIME_ROLE ( 'creation_date' ) ;
#11 = PERSON_AND_ORGANIZATION_ROLE ( 'creator' ) ;
#12 = ORIENTED_EDGE ( 'NONE', *, *, #28, .T. ) ;
#13 = CIRCLE ( 'NONE', #160, 6.500000000000000900 ) ;
#14 = APPROVAL_ROLE ( '' ) ;
#15 = APPROVAL_STATUS ( 'not_yet_approved' ) ;
#16 = LOCAL_TIME ( 11, 27, 30.00000000000000000, #88 ) ;
#17 = APPLICATION_PROTOCOL_DEFINITION ( 'international standard', 'config_control_design', 1994, #18 ) ;
#18 = APPLICATION_CONTEXT ( 'configuration controlled 3d designs of mechanical parts and assemblies' ) ;
#19 = ORIENTED_EDGE ( 'NONE', *, *, #28, .F. ) ;
#20 = APPROVAL ( #110, 'UNSPECIFIED' ) ;
#21 = PERSON_AND_ORGANIZATION_ROLE ( 'design_owner' ) ;
#22 = CC_DESIGN_DATE_AND_TIME_ASSIGNMENT ( #90, #36, ( #114 ) ) ;
#23 = PERSON_AND_ORGANIZATION ( #3, #130 ) ;
#24 = CC_DESIGN_PERSON_AND_ORGANIZATION_ASSIGNMENT ( #94, #86, ( #114 ) ) ;
#25 = LOCAL_TIME ( 11, 27, 30.00000000000000000, #93 ) ;
#26 = MECHANICAL_CONTEXT ( 'NONE', #30, 'mechanical' ) ;
#27 = PERSON_AND_ORGANIZATION ( #3, #130 ) ;
#28 = EDGE_CURVE ( 'NONE', #147, #147, #65, .T. ) ;
#29 = DIRECTION ( 'NONE',  ( 1.000000000000000000, 0.0000000000000000000, 0.0000000000000000000 ) ) ;
#30 = APPLICATION_CONTEXT ( 'configuration controlled 3d designs of mechanical parts and assemblies' ) ;
#31 = APPLICATION_PROTOCOL_DEFINITION ( 'international standard', 'config_control_design', 1994, #30 ) ;
#32 = DATE_AND_TIME ( #106, #107 ) ;
#33 = CC_DESIGN_PERSON_AND_ORGANIZATION_ASSIGNMENT ( #27, #35, ( #61 ) ) ;
#34 = COORDINATED_UNIVERSAL_TIME_OFFSET ( 3, 0, .AHEAD. ) ;
#35 = PERSON_AND_ORGANIZATION_ROLE ( 'design_supplier' ) ;
#36 = DATE_TIME_ROLE ( 'classification_date' ) ;
#37 =( NAMED_UNIT ( * ) SI_UNIT ( $, .STERADIAN. ) SOLID_ANGLE_UNIT ( ) );
#38 = DATE_AND_TIME ( #133, #52 ) ;
#39 = COORDINATED_UNIVERSAL_TIME_OFFSET ( 3, 0, .AHEAD. ) ;
#40 = DATE_AND_TIME ( #119, #121 ) ;
#41 =( NAMED_UNIT ( * ) PLANE_ANGLE_UNIT ( ) SI_UNIT ( $, .RADIAN. ) );
#42 = CC_DESIGN_PERSON_AND_ORGANIZATION_ASSIGNMENT ( #103, #1, ( #61 ) ) ;
#43 =( LENGTH_UNIT ( ) NAMED_UNIT ( * ) SI_UNIT ( .MILLI., .METRE. ) );
#44 = EDGE_LOOP ( 'NONE', ( #68 ) ) ;
#45 = EDGE_LOOP ( 'NONE', ( #162 ) ) ;
#46 = EDGE_LOOP ( 'NONE', ( #12 ) ) ;
#47 = DIRECTION ( 'NONE',  ( 1.000000000000000000, 0.0000000000000000000, 0.0000000000000000000 ) ) ;
#48 = CC_DESIGN_APPROVAL ( #54, ( #61 ) ) ;
#49 = CLOSED_SHELL ( 'NONE', ( #151, #161, #101, #142 ) ) ;
#50 = DIRECTION ( 'NONE',  ( 0.0000000000000000000, 0.0000000000000000000, 1.000000000000000000 ) ) ;
#51 = DIRECTION ( 'NONE',  ( -0.0000000000000000000, -0.0000000000000000000, -1.000000000000000000 ) ) ;
#52 = LOCAL_TIME ( 11, 27, 30.00000000000000000, #39 ) ;
#53 = COORDINATED_UNIVERSAL_TIME_OFFSET ( 3, 0, .AHEAD. ) ;
#54 = APPROVAL ( #6, 'UNSPECIFIED' ) ;
#55 = CARTESIAN_POINT ( 'NONE',  ( 6.500000000000000900, 0.0000000000000000000, 0.0000000000000000000 ) ) ;
#56 = FACE_OUTER_BOUND ( 'NONE', #46, .T. ) ;
#57 = EDGE_LOOP ( 'NONE', ( #70 ) ) ;
#58 = CARTESIAN_POINT ( 'NONE',  ( 0.0000000000000000000, 0.0000000000000000000, 0.0000000000000000000 ) ) ;
#59 = CARTESIAN_POINT ( 'NONE',  ( 18.50000000000000000, 0.0000000000000000000, 0.0000000000000000000 ) ) ;
#60 = CARTESIAN_POINT ( 'NONE',  ( 0.0000000000000000000, 0.0000000000000000000, 0.0000000000000000000 ) ) ;
#61 = PRODUCT_DEFINITION_FORMATION_WITH_SPECIFIED_SOURCE ( 'ANY', '', #96, .NOT_KNOWN. ) ;
#62 = FACE_BOUND ( 'NONE', #167, .T. ) ;
#63 = DIRECTION ( 'NONE',  ( 1.000000000000000000, 0.0000000000000000000, -0.0000000000000000000 ) ) ;
#64 = FACE_OUTER_BOUND ( 'NONE', #2, .T. ) ;
#65 = CIRCLE ( 'NONE', #169, 18.50000000000000000 ) ;
#66 = DIRECTION ( 'NONE',  ( 0.0000000000000000000, 0.0000000000000000000, 1.000000000000000000 ) ) ;
#67 = CARTESIAN_POINT ( 'NONE',  ( 18.50000000000000000, 0.0000000000000000000, 3.000000000000000000 ) ) ;
#68 = ORIENTED_EDGE ( 'NONE', *, *, #75, .F. ) ;
#69 = CC_DESIGN_DATE_AND_TIME_ASSIGNMENT ( #38, #10, ( #83 ) ) ;
#70 = ORIENTED_EDGE ( 'NONE', *, *, #100, .F. ) ;
#71 = DIRECTION ( 'NONE',  ( -1.000000000000000000, 0.0000000000000000000, 0.0000000000000000000 ) ) ;
#72 = CC_DESIGN_PERSON_AND_ORGANIZATION_ASSIGNMENT ( #115, #11, ( #83 ) ) ;
#73 = PLANE ( 'NONE',  #138 ) ;
#74 = CARTESIAN_POINT ( 'NONE',  ( 6.500000000000000900, 0.0000000000000000000, 3.000000000000000000 ) ) ;
#75 = EDGE_CURVE ( 'NONE', #146, #146, #164, .T. ) ;
#76 = CC_DESIGN_APPROVAL ( #80, ( #83 ) ) ;
#77 = CARTESIAN_POINT ( 'NONE',  ( 0.0000000000000000000, 0.0000000000000000000, 0.0000000000000000000 ) ) ;
#78 = FACE_OUTER_BOUND ( 'NONE', #128, .T. ) ;
#79 = DESIGN_CONTEXT ( 'detailed design', #18, 'design' ) ;
#80 = APPROVAL ( #15, 'UNSPECIFIED' ) ;
#81 = DIRECTION ( 'NONE',  ( 1.000000000000000000, 0.0000000000000000000, -0.0000000000000000000 ) ) ;
#82 = DATE_AND_TIME ( #85, #16 ) ;
#83 = PRODUCT_DEFINITION ( 'UNKNOWN', '', #61, #79 ) ;
#84 = DIRECTION ( 'NONE',  ( 0.0000000000000000000, 0.0000000000000000000, 1.000000000000000000 ) ) ;
#85 = CALENDAR_DATE ( 2016, 12, 2 ) ;
#86 = PERSON_AND_ORGANIZATION_ROLE ( 'classification_officer' ) ;
#87 = CARTESIAN_POINT ( 'NONE',  ( 0.0000000000000000000, 0.0000000000000000000, 3.000000000000000000 ) ) ;
#88 = COORDINATED_UNIVERSAL_TIME_OFFSET ( 3, 0, .AHEAD. ) ;
#89 = APPROVAL_PERSON_ORGANIZATION ( #23, #20, #5 ) ;
#90 = DATE_AND_TIME ( #92, #25 ) ;
#91 = PRODUCT_RELATED_PRODUCT_CATEGORY ( 'detail', '', ( #96 ) ) ;
#92 = CALENDAR_DATE ( 2016, 12, 2 ) ;
#93 = COORDINATED_UNIVERSAL_TIME_OFFSET ( 3, 0, .AHEAD. ) ;
#94 = PERSON_AND_ORGANIZATION ( #3, #130 ) ;
#95 = DIRECTION ( 'NONE',  ( 0.0000000000000000000, 0.0000000000000000000, 1.000000000000000000 ) ) ;
#96 = PRODUCT ( 'CLP1M-SHU-12 Øàéáà ïëîñêàÿ óñèëåííàÿ M12', 'CLP1M-SHU-12 Øàéáà ïëîñêàÿ óñèëåííàÿ M12', '', ( #26 ) ) ;
#97 = CC_DESIGN_PERSON_AND_ORGANIZATION_ASSIGNMENT ( #135, #21, ( #96 ) ) ;
#98 = PLANE ( 'NONE',  #141 ) ;
#99 = ADVANCED_BREP_SHAPE_REPRESENTATION ( 'CLP1M-SHU-12 +ðùñð ÿûþ¸úð  º¸øûõýýð  M12', ( #116, #117 ), #139 ) ;
#100 = EDGE_CURVE ( 'NONE', #145, #145, #158, .T. ) ;
#101 = ADVANCED_FACE ( 'NONE', ( #140, #56 ), #153, .T. ) ;
#102 = PRODUCT_DEFINITION_SHAPE ( 'NONE', 'NONE',  #83 ) ;
#103 = PERSON_AND_ORGANIZATION ( #3, #130 ) ;
#104 = APPROVAL_DATE_TIME ( #32, #54 ) ;
#105 = DIRECTION ( 'NONE',  ( 1.000000000000000000, 0.0000000000000000000, 0.0000000000000000000 ) ) ;
#106 = CALENDAR_DATE ( 2016, 12, 2 ) ;
#107 = LOCAL_TIME ( 11, 27, 30.00000000000000000, #34 ) ;
#108 = APPROVAL_PERSON_ORGANIZATION ( #113, #54, #4 ) ;
#109 = DIRECTION ( 'NONE',  ( 0.0000000000000000000, 0.0000000000000000000, 1.000000000000000000 ) ) ;
#110 = APPROVAL_STATUS ( 'not_yet_approved' ) ;
#111 = CARTESIAN_POINT ( 'NONE',  ( 0.0000000000000000000, 0.0000000000000000000, 0.0000000000000000000 ) ) ;
#112 = EDGE_CURVE ( 'NONE', #143, #143, #13, .T. ) ;
#113 = PERSON_AND_ORGANIZATION ( #3, #130 ) ;
#114 = SECURITY_CLASSIFICATION ( '', '', #126 ) ;
#115 = PERSON_AND_ORGANIZATION ( #3, #130 ) ;
#116 = MANIFOLD_SOLID_BREP ( 'Âûòÿíóòü1', #49 ) ;
#117 = AXIS2_PLACEMENT_3D ( 'NONE', #58, #50, #29 ) ;
#118 = APPROVAL_DATE_TIME ( #40, #80 ) ;
#119 = CALENDAR_DATE ( 2016, 12, 2 ) ;
#120 = CARTESIAN_POINT ( 'NONE',  ( 0.0000000000000000000, 0.0000000000000000000, 3.000000000000000000 ) ) ;
#121 = LOCAL_TIME ( 11, 27, 30.00000000000000000, #53 ) ;
#122 = APPROVAL_PERSON_ORGANIZATION ( #123, #80, #14 ) ;
#123 = PERSON_AND_ORGANIZATION ( #3, #130 ) ;
#124 = DIRECTION ( 'NONE',  ( -1.000000000000000000, 0.0000000000000000000, 0.0000000000000000000 ) ) ;
#125 = CARTESIAN_POINT ( 'NONE',  ( 0.0000000000000000000, 0.0000000000000000000, 3.000000000000000000 ) ) ;
#126 = SECURITY_CLASSIFICATION_LEVEL ( 'unclassified' ) ;
#127 = DIRECTION ( 'NONE',  ( -0.0000000000000000000, -0.0000000000000000000, -1.000000000000000000 ) ) ;
#128 = EDGE_LOOP ( 'NONE', ( #129 ) ) ;
#129 = ORIENTED_EDGE ( 'NONE', *, *, #112, .F. ) ;
#130 = ORGANIZATION ( 'UNSPECIFIED', 'UNSPECIFIED', '' ) ;
#131 = UNCERTAINTY_MEASURE_WITH_UNIT (LENGTH_MEASURE( 1.000000000000000100E-005 ), #43, 'distance_accuracy_value', 'NONE');
#132 = DIRECTION ( 'NONE',  ( 1.000000000000000000, 0.0000000000000000000, 0.0000000000000000000 ) ) ;
#133 = CALENDAR_DATE ( 2016, 12, 2 ) ;
#134 = DIRECTION ( 'NONE',  ( 0.0000000000000000000, 0.0000000000000000000, 1.000000000000000000 ) ) ;
#135 = PERSON_AND_ORGANIZATION ( #3, #130 ) ;
#136 = CARTESIAN_POINT ( 'NONE',  ( 0.0000000000000000000, 0.0000000000000000000, 3.000000000000000000 ) ) ;
#137 = SHAPE_DEFINITION_REPRESENTATION ( #102, #99 ) ;
#138 = AXIS2_PLACEMENT_3D ( 'NONE', #77, #95, #63 ) ;
#139 =( GEOMETRIC_REPRESENTATION_CONTEXT ( 3 ) GLOBAL_UNCERTAINTY_ASSIGNED_CONTEXT ( ( #131 ) ) GLOBAL_UNIT_ASSIGNED_CONTEXT ( ( #43, #41, #37 ) ) REPRESENTATION_CONTEXT ( 'NONE', 'WORKASPACE' ) );
#140 = FACE_OUTER_BOUND ( 'NONE', #57, .T. ) ;
#141 = AXIS2_PLACEMENT_3D ( 'NONE', #125, #84, #81 ) ;
#142 = ADVANCED_FACE ( 'NONE', ( #64, #78 ), #150, .F. ) ;
#143 = VERTEX_POINT ( 'NONE', #55 ) ;
#144 = AXIS2_PLACEMENT_3D ( 'NONE', #120, #127, #124 ) ;
#145 = VERTEX_POINT ( 'NONE', #67 ) ;
#146 = VERTEX_POINT ( 'NONE', #74 ) ;
#147 = VERTEX_POINT ( 'NONE', #59 ) ;
#148 = FACE_BOUND ( 'NONE', #44, .T. ) ;
#149 = DIRECTION ( 'NONE',  ( 1.000000000000000000, 0.0000000000000000000, 0.0000000000000000000 ) ) ;
#150 = CYLINDRICAL_SURFACE ( 'NONE', #144, 6.500000000000000900 ) ;
#151 = ADVANCED_FACE ( 'NONE', ( #156, #148 ), #98, .T. ) ;
#152 = FACE_OUTER_BOUND ( 'NONE', #163, .T. ) ;
#153 = CYLINDRICAL_SURFACE ( 'NONE', #154, 18.50000000000000000 ) ;
#154 = AXIS2_PLACEMENT_3D ( 'NONE', #87, #51, #71 ) ;
#155 = DIRECTION ( 'NONE',  ( 0.0000000000000000000, 0.0000000000000000000, 1.000000000000000000 ) ) ;
#156 = FACE_OUTER_BOUND ( 'NONE', #45, .T. ) ;
#157 = CARTESIAN_POINT ( 'NONE',  ( 0.0000000000000000000, 0.0000000000000000000, 3.000000000000000000 ) ) ;
#158 = CIRCLE ( 'NONE', #166, 18.50000000000000000 ) ;
#159 = ORIENTED_EDGE ( 'NONE', *, *, #75, .T. ) ;
#160 = AXIS2_PLACEMENT_3D ( 'NONE', #111, #109, #105 ) ;
#161 = ADVANCED_FACE ( 'NONE', ( #152, #62 ), #73, .F. ) ;
#162 = ORIENTED_EDGE ( 'NONE', *, *, #100, .T. ) ;
#163 = EDGE_LOOP ( 'NONE', ( #19 ) ) ;
#164 = CIRCLE ( 'NONE', #168, 6.500000000000000900 ) ;
#165 = ORIENTED_EDGE ( 'NONE', *, *, #112, .T. ) ;
#166 = AXIS2_PLACEMENT_3D ( 'NONE', #136, #134, #132 ) ;
#167 = EDGE_LOOP ( 'NONE', ( #165 ) ) ;
#168 = AXIS2_PLACEMENT_3D ( 'NONE', #157, #155, #149 ) ;
#169 = AXIS2_PLACEMENT_3D ( 'NONE', #60, #66, #47 ) ;
ENDSEC;
END-ISO-10303-21;
